Classifica 2022 - Gp Anni 2020-2029

Storia Della Formula 1
Vai ai contenuti

Classifica 2022

GP ANNI 2020-2029 > 2022



CLASSIFICA PILOTI

Bah

Ars

Aus

Emr

Mia

Spa

Mon

Aze

Can

Gbr

Aut

Fra

Ung

BelOlaItaSinJap

Usa

Mex

San

Abd

Ps.

Pilota

Naz

Punti




















Vitt

Pole

G.Vel

Podi

1
335
-
25
-
34
26
25
15
25
25
6 27
25
25
26
26
25
--- - - - 11 4 5 13
2
219
26
19
26
15 18 - 12 - 10 12
32
- 8 81518--- - - - 3 8 3 7
3
210
- 12 18 24 12 19
25
19 - 18 412 10 18109--- - - - 1 1 3 7
4
203
12 10 15 12 10 15 10 15 12 - 1715 15 121815--- - - - - 1 - 7
5
187
18 15 - 5 15 12 18 - 19
25
611 12 15412--- - - - 1 2 2 7
6
168
15 1 12 - 8 10 4 12 15 16 1618 19 -1210--- - - - - - 2 6
7
88
- 6 10 19 - 4 9 2 - 8 66 6 -66--- - - - - - 1 1
8
66
6 8 6 - 4 6 - 1 8 - 134 2 62---- - - - - - - -
9
59
2 - - - - 2 6 6 2 10 18 4 108---- - - - - - - -
10
46
8 - 4 12 6 8 2 - 6 - -- - ------ - - - - - - -
11
22
- 4 2 - - - - - 10 - -- - 2-4--- - - - - - - -
- Kevin Magnussen
22
10
2
- 3 - - - - - 1 6- - ------ - - - - - - -
13
20
- - - 4 - - 1 8 - 2 -- 1 4----- - - - - - - -
14 Daniel Ricciardo
19
-
-
8 3 - - - 4 - - 22 - ------ - - - - - - -
15 Mick Schumacher
12
- - - - - - - - - 4 8- - ------ - - - - - - -
16 Yuki Tsunoda
11
4 - - 6 - 1 - - - - -- - ------ - - - - - - -
17
6
1 - - - - - - - 4 - -- - --1--- - - - - - - -
18
5 -
-
- 1 1 - - - 1 - -1 -
-
1---- - - - - - - -
19
4
- - 1 - 2 - - - - - -- - 1----- - - - - - - -
20 Nick De Vries
2
- - - - - - - - - - -- - --2--- - - - - - - -
21 Nicholas Latifi
0
- - - - - - - - - - -- - ------ - - - - - - -
22 Nicolas Hulkenberg
0
- - - - - - - - - - -- - ------ - - - - - - -
-

CRITERI ASSEGNAZIONE PUNTI - 2022 -

A punti i primi dieci: 25 -18 -15 -12 -10 - 8 - 6 - 4 - 2 - 1. Migliore giro: 1 pt (solo finendo tra i primi 10)

Vengono considerati tutti i piazzamenti.

CLASSIFICA TEAM

Bah

Ars

Aus

Emr

Mia

Spa

Mon

Aze

Can

Gbr

Aut

Fra

Ung

BelOlaItaSinJap

Usa

Mex

San

Abd

Ps.

Pilota

Naz

Punti

















Vitt

Pole

G.Vel

Podi

1
545
-
37
18
58
38
44
40
44
25
24 31
37
35
44
36
34
--- - - - 12 5 8 20
2 Ferrari
406
44
34
26
20
33
12
30
-
29
37
38
11
20
231930
-
-
- - -
-
4 10 5 14
3 Mercedes
371
27
11
27
12
18
25
14
27
27
16
33
33
34
12
30
25
-
-
-
-
-
-
- 1
2
13
4
125
8 8 6 - 6 8 6 7 10 10 1412 6 1610---- - - - - - - -
5
107
- 6 18 22 - 4 9 6 - 8 88 6 -66--- - - - - - 1 1
6
52
9 - 4 12 6 8 2 - 10 - -- - --1--- - - - - - - -
7
34
10 2 - 3 - - - - - 5 14- - ------ - - - - - - -
8
33
4 4 2 6 - 1 - 10 - - -- - 2-4--- - - - - - - -
9
25
- - - 5 1 - 1 8 1 2 -1 1 41---- - - - - - - -
10
6
- - 1 - 2 - - - - - -- - 1-2--- - - - - - - -
-

CRITERI ASSEGNAZIONE PUNTI - 2022 -

A punti i primi dieci: 25 -18 -15 -12 -10 - 8 - 6 - 4 - 2 - 1. Migliore giro: 1 pt (solo finendo tra i primi 10)

Vengono considerati tutti i piazzamenti.

Torna ai contenuti